  0
SECTION
  2
HEADER
  9
$ACADVER
  1
AC1015
  9
$ACADMAINTVER
 70
     6
  9
$DWGCODEPAGE
  3
ANSI_1254
  9
$INSBASE
 10
0.0
 20
0.0
 30
0.0
  9
$EXTMIN
 10
0.0
 20
0.0
 30
0.0
  9
$EXTMAX
 10
279.4
 20
215.9
 30
0.0
  9
$LIMMIN
 10
0.0
 20
0.0
  9
$LIMMAX
 10
279.4
 20
215.9
  9
$ORTHOMODE
 70
     0
  9
$REGENMODE
 70
     1
  9
$FILLMODE
 70
     1
  9
$QTEXTMODE
 70
     0
  9
$MIRRTEXT
 70
     1
  9
$LTSCALE
 40
1.0
  9
$ATTMODE
 70
     1
  9
$TEXTSIZE
 40
3.5
  9
$TRACEWID
 40
1.0
  9
$TEXTSTYLE
  7
Standard
  9
$CLAYER
  8
0
  9
$CELTYPE
  6
ByLayer
  9
$CECOLOR
 62
   256
  9
$CELTSCALE
 40
1.0
  9
$DISPSILH
 70
     0
  9
$DIMSCALE
 40
1.0
  9
$DIMASZ
 40
3.5
  9
$DIMEXO
 40
1.0
  9
$DIMDLI
 40
3.75
  9
$DIMRND
 40
0.0
  9
$DIMDLE
 40
0.0
  9
$DIMEXE
 40
1.0
  9
$DIMTP
 40
0.0
  9
$DIMTM
 40
0.0
  9
$DIMTXT
 40
3.5
  9
$DIMCEN
 40
2.5
  9
$DIMTSZ
 40
0.0
  9
$DIMTOL
 70
     0
  9
$DIMLIM
 70
     0
  9
$DIMTIH
 70
     1
  9
$DIMTOH
 70
     1
  9
$DIMSE1
 70
     0
  9
$DIMSE2
 70
     0
  9
$DIMTAD
 70
     1
  9
$DIMZIN
 70
     0
  9
$DIMBLK
  1

  9
$DIMASO
 70
     1
  9
$DIMSHO
 70
     1
  9
$DIMPOST
  1

  9
$DIMAPOST
  1

  9
$DIMALT
 70
     0
  9
$DIMALTD
 70
     3
  9
$DIMALTF
 40
0.0393700787
  9
$DIMLFAC
 40
1.0
  9
$DIMTOFL
 70
     1
  9
$DIMTVP
 40
0.0
  9
$DIMTIX
 70
     0
  9
$DIMSOXD
 70
     0
  9
$DIMSAH
 70
     0
  9
$DIMBLK1
  1

  9
$DIMBLK2
  1

  9
$DIMSTYLE
  2
ISO-25
  9
$DIMCLRD
 70
     0
  9
$DIMCLRE
 70
     0
  9
$DIMCLRT
 70
     0
  9
$DIMTFAC
 40
1.0
  9
$DIMGAP
 40
1.524
  9
$DIMJUST
 70
     0
  9
$DIMSD1
 70
     0
  9
$DIMSD2
 70
     0
  9
$DIMTOLJ
 70
     0
  9
$DIMTZIN
 70
     0
  9
$DIMALTZ
 70
     0
  9
$DIMALTTZ
 70
     0
  9
$DIMUPT
 70
     0
  9
$DIMDEC
 70
     2
  9
$DIMTDEC
 70
     2
  9
$DIMALTU
 70
     2
  9
$DIMALTTD
 70
     3
  9
$DIMTXSTY
  7
Standard
  9
$DIMAUNIT
 70
     0
  9
$DIMADEC
 70
     2
  9
$DIMALTRND
 40
0.0
  9
$DIMAZIN
 70
     0
  9
$DIMDSEP
 70
    44
  9
$DIMATFIT
 70
     3
  9
$DIMFRAC
 70
     0
  9
$DIMLDRBLK
  1

  9
$DIMLUNIT
 70
     2
  9
$DIMLWD
 70
    -2
  9
$DIMLWE
 70
    -2
  9
$DIMTMOVE
 70
     0
  9
$LUNITS
 70
     2
  9
$LUPREC
 70
     2
  9
$SKETCHINC
 40
1.0
  9
$FILLETRAD
 40
10.0
  9
$AUNITS
 70
     0
  9
$AUPREC
 70
     2
  9
$MENU
  1
.
  9
$ELEVATION
 40
0.0
  9
$PELEVATION
 40
0.0
  9
$THICKNESS
 40
0.0
  9
$LIMCHECK
 70
     0
  9
$CHAMFERA
 40
0.0
  9
$CHAMFERB
 40
0.0
  9
$CHAMFERC
 40
0.0
  9
$CHAMFERD
 40
0.0
  9
$SKPOLY
 70
     0
  9
$TDCREATE
 40
2459853.610613415
  9
$TDUCREATE
 40
2459853.485613415
  9
$TDUPDATE
 40
2459853.610613553
  9
$TDUUPDATE
 40
2459853.485613553
  9
$TDINDWG
 40
0.0000000116
  9
$TDUSRTIMER
 40
0.0000000116
  9
$USRTIMER
 70
     1
  9
$ANGBASE
 50
0.0
  9
$ANGDIR
 70
     0
  9
$PDMODE
 70
     0
  9
$PDSIZE
 40
-1.0
  9
$PLINEWID
 40
0.0
  9
$SPLFRAME
 70
     0
  9
$SPLINETYPE
 70
     6
  9
$SPLINESEGS
 70
     8
  9
$HANDSEED
  5
F2
  9
$SURFTAB1
 70
     6
  9
$SURFTAB2
 70
     6
  9
$SURFTYPE
 70
     6
  9
$SURFU
 70
     6
  9
$SURFV
 70
     6
  9
$UCSBASE
  2

  9
$UCSNAME
  2

  9
$UCSORG
 10
0.0
 20
0.0
 30
0.0
  9
$UCSXDIR
 10
1.0
 20
0.0
 30
0.0
  9
$UCSYDIR
 10
0.0
 20
1.0
 30
0.0
  9
$UCSORTHOREF
  2

  9
$UCSORTHOVIEW
 70
     0
  9
$UCSORGTOP
 10
0.0
 20
0.0
 30
0.0
  9
$UCSORGBOTTOM
 10
0.0
 20
0.0
 30
0.0
  9
$UCSORGLEFT
 10
0.0
 20
0.0
 30
0.0
  9
$UCSORGRIGHT
 10
0.0
 20
0.0
 30
0.0
  9
$UCSORGFRONT
 10
0.0
 20
0.0
 30
0.0
  9
$UCSORGBACK
 10
0.0
 20
0.0
 30
0.0
  9
$PUCSBASE
  2

  9
$PUCSNAME
  2

  9
$PUCSORG
 10
0.0
 20
0.0
 30
0.0
  9
$PUCSXDIR
 10
1.0
 20
0.0
 30
0.0
  9
$PUCSYDIR
 10
0.0
 20
1.0
 30
0.0
  9
$PUCSORTHOREF
  2

  9
$PUCSORTHOVIEW
 70
     0
  9
$PUCSORGTOP
 10
0.0
 20
0.0
 30
0.0
  9
$PUCSORGBOTTOM
 10
0.0
 20
0.0
 30
0.0
  9
$PUCSORGLEFT
 10
0.0
 20
0.0
 30
0.0
  9
$PUCSORGRIGHT
 10
0.0
 20
0.0
 30
0.0
  9
$PUCSORGFRONT
 10
0.0
 20
0.0
 30
0.0
  9
$PUCSORGBACK
 10
0.0
 20
0.0
 30
0.0
  9
$USERI1
 70
     0
  9
$USERI2
 70
     0
  9
$USERI3
 70
     0
  9
$USERI4
 70
     0
  9
$USERI5
 70
     0
  9
$USERR1
 40
0.0
  9
$USERR2
 40
0.0
  9
$USERR3
 40
0.0
  9
$USERR4
 40
0.0
  9
$USERR5
 40
0.0
  9
$WORLDVIEW
 70
     1
  9
$SHADEDGE
 70
     3
  9
$SHADEDIF
 70
    70
  9
$TILEMODE
 70
     1
  9
$MAXACTVP
 70
    64
  9
$PINSBASE
 10
0.0
 20
0.0
 30
0.0
  9
$PLIMCHECK
 70
     0
  9
$PEXTMIN
 10
1.0000000000E+20
 20
1.0000000000E+20
 30
1.0000000000E+20
  9
$PEXTMAX
 10
-1.0000000000E+20
 20
-1.0000000000E+20
 30
-1.0000000000E+20
  9
$PLIMMIN
 10
0.0
 20
0.0
  9
$PLIMMAX
 10
420.0
 20
297.0
  9
$UNITMODE
 70
     0
  9
$VISRETAIN
 70
     1
  9
$PLINEGEN
 70
     0
  9
$PSLTSCALE
 70
     1
  9
$TREEDEPTH
 70
  3020
  9
$CMLSTYLE
  2
Standard
  9
$CMLJUST
 70
     0
  9
$CMLSCALE
 40
20.0
  9
$PROXYGRAPHICS
 70
     1
  9
$MEASUREMENT
 70
     1
  9
$CELWEIGHT
370
    -1
  9
$ENDCAPS
280
     0
  9
$JOINSTYLE
280
     0
  9
$LWDISPLAY
290
     1
  9
$INSUNITS
 70
     4
  9
$HYPERLINKBASE
  1

  9
$STYLESHEET
  1

  9
$XEDIT
290
     1
  9
$CEPSNTYPE
380
     0
  9
$PSTYLEMODE
290
     1
  9
$FINGERPRINTGUID
  2
{196bdae9-8a9b-47cc-831c-e017210eb78a}
  9
$VERSIONGUID
  2
{FAEB1C32-E019-11D5-929B-00C0DF256EC4}
  9
$EXTNAMES
290
     1
  9
$PSVPSCALE
 40
0.0
  9
$OLESTARTUP
290
     0
  0
ENDSEC
  0
SECTION
  2
CLASSES
  0
CLASS
  1
ACDBDICTIONARYWDFLT
  2
AcDbDictionaryWithDefault
  3
ObjectDBX Classes
 90
        0
280
     0
281
     0
  0
CLASS
  1
VISUALSTYLE
  2
AcDbVisualStyle
  3
ObjectDBX Classes
 90
     4095
280
     0
281
     0
  0
CLASS
  1
MATERIAL
  2
AcDbMaterial
  3
ObjectDBX Classes
 90
     1153
280
     0
281
     0
  0
CLASS
  1
SCALE
  2
AcDbScale
  3
ObjectDBX Classes
 90
     1153
280
     0
281
     0
  0
CLASS
  1
TABLESTYLE
  2
AcDbTableStyle
  3
ObjectDBX Classes
 90
     4095
280
     0
281
     0
  0
CLASS
  1
MLEADERSTYLE
  2
AcDbMLeaderStyle
  3
ACDB_MLEADERSTYLE_CLASS
 90
     4095
280
     0
281
     0
  0
CLASS
  1
SUN
  2
AcDbSun
  3
SCENEOE
 90
     1153
280
     0
281
     0
  0
CLASS
  1
ACDBPLACEHOLDER
  2
AcDbPlaceHolder
  3
ObjectDBX Classes
 90
        0
280
     0
281
     0
  0
CLASS
  1
LAYOUT
  2
AcDbLayout
  3
ObjectDBX Classes
 90
        0
280
     0
281
     0
  0
ENDSEC
  0
SECTION
  2
TABLES
  0
TABLE
  2
VPORT
  5
8
330
0
100
AcDbSymbolTable
 70
     1
  0
VPORT
  5
29
330
8
100
AcDbSymbolTableRecord
100
AcDbViewportTableRecord
  2
*Active
 70
     0
 10
0.0
 20
0.0
 11
1.0
 21
1.0
 12
139.7
 22
107.95
 13
0.0
 23
0.0
 14
10.0
 24
10.0
 15
10.0
 25
10.0
 16
0.0
 26
0.0
 36
1.0
 17
0.0
 27
0.0
 37
0.0
 40
215.9
 41
1.2941176471
 42
50.0
 43
0.0
 44
0.0
 50
0.0
 51
0.0
 71
     0
 72
  2000
 73
     1
 74
     3
 75
     0
 76
     0
 77
     0
 78
     0
281
     0
 65
     1
110
0.0
120
0.0
130
0.0
111
1.0
121
0.0
131
0.0
112
0.0
122
1.0
132
0.0
 79
     0
146
0.0
  0
ENDTAB
  0
TABLE
  2
LTYPE
  5
5
330
0
100
AcDbSymbolTable
 70
     6
  0
LTYPE
  5
14
330
5
100
AcDbSymbolTableRecord
100
AcDbLinetypeTableRecord
  2
ByBlock
 70
     0
  3

 72
    65
 73
     0
 40
0.0
  0
LTYPE
  5
15
330
5
100
AcDbSymbolTableRecord
100
AcDbLinetypeTableRecord
  2
ByLayer
 70
     0
  3

 72
    65
 73
     0
 40
0.0
  0
LTYPE
  5
16
330
5
100
AcDbSymbolTableRecord
100
AcDbLinetypeTableRecord
  2
Continuous
 70
     0
  3
Solid line
 72
    65
 73
     0
 40
0.0
  0
LTYPE
  5
6E
330
5
100
AcDbSymbolTableRecord
100
AcDbLinetypeTableRecord
  2
HIDDEN
 70
     0
  3
Hidden __ __ __ __ __ __ __ __ __ __ __ __ __ __
 72
    65
 73
     2
 40
1.905
 49
1.27
 74
     0
 49
-0.635
 74
     0
  0
LTYPE
  5
6F
330
5
100
AcDbSymbolTableRecord
100
AcDbLinetypeTableRecord
  2
PHANTOM
 70
     0
  3
Phantom ______  __  __  ______  __  __  ______
 72
    65
 73
     6
 40
12.7
 49
6.35
 74
     0
 49
-1.27
 74
     0
 49
1.27
 74
     0
 49
-1.27
 74
     0
 49
1.27
 74
     0
 49
-1.27
 74
     0
  0
LTYPE
  5
70
330
5
100
AcDbSymbolTableRecord
100
AcDbLinetypeTableRecord
  2
CENTER
 70
     0
  3
Center ____ _ ____ _ ____ _ ____ _ ____ _ ____
 72
    65
 73
     4
 40
10.16
 49
6.35
 74
     0
 49
-1.27
 74
     0
 49
1.27
 74
     0
 49
-1.27
 74
     0
  0
LTYPE
  5
71
330
5
100
AcDbSymbolTableRecord
100
AcDbLinetypeTableRecord
  2
CENTERX2
 70
     0
  3
Center (2x) ________  __  ________  __  _____
 72
    65
 73
     4
 40
20.32
 49
12.7
 74
     0
 49
-2.54
 74
     0
 49
2.54
 74
     0
 49
-2.54
 74
     0
  0
LTYPE
  5
72
330
5
100
AcDbSymbolTableRecord
100
AcDbLinetypeTableRecord
  2
DOT2
 70
     0
  3
Dot (.5x) ........................................
 72
    65
 73
     2
 40
0.635
 49
0.0
 74
     0
 49
-0.635
 74
     0
  0
ENDTAB
  0
TABLE
  2
LAYER
  5
2
330
0
100
AcDbSymbolTable
 70
    17
  0
LAYER
  5
10
330
2
100
AcDbSymbolTableRecord
100
AcDbLayerTableRecord
  2
0
 70
     0
 62
     7
  6
Continuous
370
    -3
390
F
  0
LAYER
  5
73
330
2
100
AcDbSymbolTableRecord
100
AcDbLayerTableRecord
  2
FORMAT
 70
     0
 62
     7
  6
Continuous
370
    -3
390
F
  0
LAYER
  5
74
330
2
100
AcDbSymbolTableRecord
100
AcDbLayerTableRecord
  2
YARDIMCI_GEOMETRI
 70
     0
 62
    -6
  6
Continuous
290
     0
370
    -3
390
F
  0
LAYER
  5
75
330
2
100
AcDbSymbolTableRecord
100
AcDbLayerTableRecord
  2
SAYFA_CERCEVESI
 70
     0
 62
     7
  6
Continuous
370
    25
390
F
  0
LAYER
  5
76
330
2
100
AcDbSymbolTableRecord
100
AcDbLayerTableRecord
  2
ANTET
 70
     0
 62
     7
  6
Continuous
370
    -3
390
F
  0
LAYER
  5
77
330
2
100
AcDbSymbolTableRecord
100
AcDbLayerTableRecord
  2
OLCU
 70
     0
 62
   150
  6
Continuous
370
    -3
390
F
  0
LAYER
  5
78
330
2
100
AcDbSymbolTableRecord
100
AcDbLayerTableRecord
  2
METIN
 70
     0
 62
    96
  6
Continuous
370
    -3
390
F
  0
LAYER
  5
79
330
2
100
AcDbSymbolTableRecord
100
AcDbLayerTableRecord
  2
BALON
 70
     0
 62
     5
  6
Continuous
370
    -3
390
F
  0
LAYER
  5
7A
330
2
100
AcDbSymbolTableRecord
100
AcDbLayerTableRecord
  2
VURGU
 70
     0
 62
     7
  6
Continuous
370
    -3
390
F
  0
LAYER
  5
7B
330
2
100
AcDbSymbolTableRecord
100
AcDbLayerTableRecord
  2
SILIK
 70
     0
 62
     7
  6
Continuous
370
    -3
390
F
  0
LAYER
  5
7C
330
2
100
AcDbSymbolTableRecord
100
AcDbLayerTableRecord
  2
MODEL
 70
     0
 62
     7
  6
Continuous
370
    -3
390
F
  0
LAYER
  5
7D
330
2
100
AcDbSymbolTableRecord
100
AcDbLayerTableRecord
  2
DETAYLANDıRMA
 70
     0
 62
   190
  6
Continuous
370
    -3
390
F
  0
LAYER
  5
7E
330
2
100
AcDbSymbolTableRecord
100
AcDbLayerTableRecord
  2
TOLERANS
 70
     0
 62
   230
  6
Continuous
370
    -3
390
F
  0
LAYER
  5
7F
330
2
100
AcDbSymbolTableRecord
100
AcDbLayerTableRecord
  2
MERKEZ_CIZGILERI
 70
     0
 62
    30
  6
Continuous
370
    -3
390
F
  0
LAYER
  5
80
330
2
100
AcDbSymbolTableRecord
100
AcDbLayerTableRecord
  2
KESIT-DETAY_CIZGILERI
 70
     0
 62
     7
  6
Continuous
370
    -3
390
F
  0
LAYER
  5
81
330
2
100
AcDbSymbolTableRecord
100
AcDbLayerTableRecord
  2
\U+041E\U+0421\U+0415\U+0412\U+042B\U+0415
 70
     0
 62
     7
  6
Continuous
370
    -3
390
F
  0
LAYER
  5
82
330
2
100
AcDbSymbolTableRecord
100
AcDbLayerTableRecord
  2
\U+0412\U+041E\U+0414\U+042F\U+041D\U+042B\U+0415_\U+0417\U+041D\U+0410\U+041A\U+0418
 70
     0
 62
    11
  6
Continuous
370
    -3
390
F
  0
ENDTAB
  0
TABLE
  2
STYLE
  5
3
330
0
100
AcDbSymbolTable
 70
     1
  0
STYLE
  5
11
330
3
100
AcDbSymbolTableRecord
100
AcDbTextStyleTableRecord
  2
Standard
 70
     0
 40
0.0
 41
1.0
 50
0.0
 71
     0
 42
3.5
  3
txt
  4

  0
ENDTAB
  0
TABLE
  2
VIEW
  5
6
330
0
100
AcDbSymbolTable
 70
     0
  0
ENDTAB
  0
TABLE
  2
UCS
  5
7
330
0
100
AcDbSymbolTable
 70
     0
  0
ENDTAB
  0
TABLE
  2
APPID
  5
9
330
0
100
AcDbSymbolTable
 70
     1
  0
APPID
  5
12
330
9
100
AcDbSymbolTableRecord
100
AcDbRegAppTableRecord
  2
ACAD
 70
     0
  0
ENDTAB
  0
TABLE
  2
DIMSTYLE
  5
A
330
0
100
AcDbSymbolTable
 70
     1
100
AcDbDimStyleTable
  0
DIMSTYLE
105
27
330
A
100
AcDbSymbolTableRecord
100
AcDbDimStyleTableRecord
  2
ISO-25
 70
     0
 41
2.5
 42
0.625
 43
3.75
 44
1.25
 73
     0
 74
     0
 77
     1
 78
     8
140
2.5
141
2.5
143
0.0393700787
147
0.625
171
     3
172
     1
178
     0
271
     2
272
     2
274
     3
278
    44
283
     0
284
     8
340
11
  0
ENDTAB
  0
TABLE
  2
BLOCK_RECORD
  5
1
330
0
100
AcDbSymbolTable
 70
     2
  0
BLOCK_RECORD
  5
1F
330
1
100
AcDbSymbolTableRecord
100
AcDbBlockTableRecord
  2
*Model_Space
340
22
  0
BLOCK_RECORD
  5
1B
330
1
100
AcDbSymbolTableRecord
100
AcDbBlockTableRecord
  2
*Paper_Space
340
1E
  0
BLOCK_RECORD
  5
23
330
1
100
AcDbSymbolTableRecord
100
AcDbBlockTableRecord
  2
*Paper_Space0
340
26
  0
BLOCK_RECORD
  5
E5
330
1
100
AcDbSymbolTableRecord
100
AcDbBlockTableRecord
  2
SW_CENTERMARKSYMBOL_0
340
0
102
{BLKREFS
331
F0
102
}
  0
ENDTAB
  0
ENDSEC
  0
SECTION
  2
BLOCKS
  0
BLOCK
  5
20
330
1F
100
AcDbEntity
  8
0
100
AcDbBlockBegin
  2
*Model_Space
 70
     0
 10
0.0
 20
0.0
 30
0.0
  3
*Model_Space
  1

  0
ENDBLK
  5
21
330
1F
100
AcDbEntity
  8
0
100
AcDbBlockEnd
  0
BLOCK
  5
1C
330
1B
100
AcDbEntity
 67
     1
  8
0
100
AcDbBlockBegin
  2
*Paper_Space
 70
     0
 10
0.0
 20
0.0
 30
0.0
  3
*Paper_Space
  1

  0
ENDBLK
  5
1D
330
1B
100
AcDbEntity
 67
     1
  8
0
100
AcDbBlockEnd
  0
BLOCK
  5
24
330
23
100
AcDbEntity
  8
0
100
AcDbBlockBegin
  2
*Paper_Space0
 70
     0
 10
0.0
 20
0.0
 30
0.0
  3
*Paper_Space0
  1

  0
ENDBLK
  5
25
330
23
100
AcDbEntity
  8
0
100
AcDbBlockEnd
  0
BLOCK
  5
E6
330
E5
100
AcDbEntity
  8
0
100
AcDbBlockBegin
  2
SW_CENTERMARKSYMBOL_0
 70
     0
 10
0.0
 20
0.0
 30
0.0
  3
SW_CENTERMARKSYMBOL_0
  1

  0
LINE
  5
E8
330
E5
100
AcDbEntity
  8
FORMAT
 62
     0
100
AcDbLine
 10
0.0
 20
0.0
 30
0.0
 11
0.0
 21
2.5
 31
0.0
  0
LINE
  5
E9
330
E5
100
AcDbEntity
  8
FORMAT
 62
     0
100
AcDbLine
 10
0.0
 20
0.0
 30
0.0
 11
-2.5
 21
0.0
 31
0.0
  0
LINE
  5
EA
330
E5
100
AcDbEntity
  8
FORMAT
 62
     0
100
AcDbLine
 10
0.0
 20
0.0
 30
0.0
 11
0.0
 21
-2.5
 31
0.0
  0
LINE
  5
EB
330
E5
100
AcDbEntity
  8
FORMAT
 62
     0
100
AcDbLine
 10
0.0
 20
0.0
 30
0.0
 11
2.5
 21
0.0
 31
0.0
  0
LINE
  5
EC
330
E5
100
AcDbEntity
  8
FORMAT
 62
     0
100
AcDbLine
 10
0.0
 20
5.0
 30
0.0
 11
0.0
 21
160.0
 31
0.0
  0
LINE
  5
ED
330
E5
100
AcDbEntity
  8
FORMAT
 62
     0
100
AcDbLine
 10
-5.0
 20
0.0
 30
0.0
 11
-160.0
 21
0.0
 31
0.0
  0
LINE
  5
EE
330
E5
100
AcDbEntity
  8
FORMAT
 62
     0
100
AcDbLine
 10
0.0
 20
-5.0
 30
0.0
 11
0.0
 21
-160.0
 31
0.0
  0
LINE
  5
EF
330
E5
100
AcDbEntity
  8
FORMAT
 62
     0
100
AcDbLine
 10
5.0
 20
0.0
 30
0.0
 11
160.0
 21
0.0
 31
0.0
  0
ENDBLK
  5
E7
330
E5
100
AcDbEntity
  8
0
100
AcDbBlockEnd
  0
ENDSEC
  0
SECTION
  2
ENTITIES
  0
ARC
  5
83
330
1F
100
AcDbEntity
  8
0
  6
Continuous
 62
     7
370
    25
100
AcDbCircle
 10
-377.0101715017
 20
267.5420513222
 30
0.0
 40
2.000000000000031
100
AcDbArc
 50
63.0307524982
 51
90.0
  0
ARC
  5
84
330
1F
100
AcDbEntity
  8
0
  6
Continuous
 62
     7
370
    25
100
AcDbCircle
 10
-377.0101715017
 20
-43.4579486778
 30
0.0
 40
2.000000000000006
100
AcDbArc
 50
270.0
 51
296.9692475018
  0
LINE
  5
85
330
1F
100
AcDbEntity
  8
0
  6
Continuous
 62
     7
370
    25
100
AcDbLine
 10
-377.0101715017
 20
269.5420513222
 30
0.0
 11
-526.5305816155
 21
269.5420513222
 31
0.0
  0
LINE
  5
86
330
1F
100
AcDbEntity
  8
0
  6
Continuous
 62
     7
370
    25
100
AcDbLine
 10
-526.5305816155
 20
-45.4579486778
 30
0.0
 11
-377.0101715017
 21
-45.4579486778
 31
0.0
  0
LINE
  5
87
330
1F
100
AcDbEntity
  8
0
  6
Continuous
 62
     7
370
    25
100
AcDbLine
 10
-376.1031470971
 20
-45.2404488122
 30
0.0
 11
-263.9580161339
 21
11.8245514567
 31
0.0
  0
LINE
  5
88
330
1F
100
AcDbEntity
  8
0
  6
Continuous
 62
     7
370
    25
100
AcDbLine
 10
-263.9580161339
 20
212.2595511878
 30
0.0
 11
-376.1031470971
 21
269.3245514567
 31
0.0
  0
ARC
  5
89
330
1F
100
AcDbEntity
  8
0
  6
Continuous
 62
     7
370
    25
100
AcDbCircle
 10
-263.0509917292
 20
214.0420513222
 30
0.0
 40
2.000000000000006
100
AcDbArc
 50
243.0307524982
 51
270.0
  0
ARC
  5
8A
330
1F
100
AcDbEntity
  8
0
  6
Continuous
 62
     7
370
    25
100
AcDbCircle
 10
-263.0509917292
 20
10.0420513222
 30
0.0
 40
2.000000000000003
100
AcDbArc
 50
90.0
 51
116.9692475018
  0
LINE
  5
8B
330
1F
100
AcDbEntity
  8
0
  6
Continuous
 62
     7
370
    25
100
AcDbLine
 10
-146.5305816155
 20
212.0420513222
 30
0.0
 11
-263.0509917292
 21
212.0420513222
 31
0.0
  0
LINE
  5
8C
330
1F
100
AcDbEntity
  8
0
  6
Continuous
 62
     7
370
    25
100
AcDbLine
 10
-263.0509917292
 20
12.0420513222
 30
0.0
 11
-146.5305816155
 21
12.0420513222
 31
0.0
  0
LINE
  5
8D
330
1F
100
AcDbEntity
  8
0
  6
Continuous
 62
     7
370
    25
100
AcDbLine
 10
-526.5305816155
 20
269.5420513222
 30
0.0
 11
-526.5305816155
 21
-45.4579486778
 31
0.0
  0
LINE
  5
8E
330
1F
100
AcDbEntity
  8
0
  6
Continuous
 62
     7
370
    25
100
AcDbLine
 10
-146.5305816155
 20
212.0420513222
 30
0.0
 11
-146.5305816155
 21
12.0420513222
 31
0.0
  0
LINE
  5
8F
330
1F
100
AcDbEntity
  8
0
  6
Continuous
 62
     1
370
    25
100
AcDbLine
 10
-376.1031470971
 20
269.3245514567
 30
0.0
 11
-376.1031470971
 21
-45.2404488122
 31
0.0
  0
LINE
  5
90
330
1F
100
AcDbEntity
  8
0
  6
Continuous
 62
     1
370
    25
100
AcDbLine
 10
-377.0101715017
 20
269.5420513222
 30
0.0
 11
-377.0101715017
 21
-45.4579486778
 31
0.0
  0
LINE
  5
91
330
1F
100
AcDbEntity
  8
0
  6
Continuous
 62
     1
370
    25
100
AcDbLine
 10
-263.9580161339
 20
212.2595511878
 30
0.0
 11
-263.9580161339
 21
11.8245514567
 31
0.0
  0
LINE
  5
92
330
1F
100
AcDbEntity
  8
0
  6
Continuous
 62
     1
370
    25
100
AcDbLine
 10
-263.0509917292
 20
212.0420513222
 30
0.0
 11
-263.0509917292
 21
12.0420513222
 31
0.0
  0
ARC
  5
93
330
1F
100
AcDbEntity
  8
0
  6
Continuous
 62
     7
370
    25
100
AcDbCircle
 10
276.1810329512
 20
607.3827628212
 30
0.0
 40
2.000000000000057
100
AcDbArc
 50
333.0307524982
 51
0.0
  0
ARC
  5
94
330
1F
100
AcDbEntity
  8
0
  6
Continuous
 62
     7
370
    25
100
AcDbCircle
 10
-34.8189670488
 20
607.3827628212
 30
0.0
 40
2.000000000000025
100
AcDbArc
 50
180.0
 51
206.9692475018
  0
LINE
  5
95
330
1F
100
AcDbEntity
  8
0
  6
Continuous
 62
     7
370
    25
100
AcDbLine
 10
278.1810329512
 20
607.3827628212
 30
0.0
 11
278.1810329512
 21
756.9031729349
 31
0.0
  0
LINE
  5
96
330
1F
100
AcDbEntity
  8
0
  6
Continuous
 62
     7
370
    25
100
AcDbLine
 10
-36.8189670488
 20
756.9031729349
 30
0.0
 11
-36.8189670488
 21
607.3827628212
 31
0.0
  0
LINE
  5
97
330
1F
100
AcDbEntity
  8
0
  6
Continuous
 62
     7
370
    25
100
AcDbLine
 10
-36.6014671833
 20
606.4757384165
 30
0.0
 11
20.4635330856
 21
494.3306074533
 31
0.0
  0
LINE
  5
98
330
1F
100
AcDbEntity
  8
0
  6
Continuous
 62
     7
370
    25
100
AcDbLine
 10
220.8985328167
 20
494.3306074533
 30
0.0
 11
277.9635330856
 21
606.4757384165
 31
0.0
  0
ARC
  5
99
330
1F
100
AcDbEntity
  8
0
  6
Continuous
 62
     7
370
    25
100
AcDbCircle
 10
222.6810329512
 20
493.4235830486
 30
0.0
 40
2.0
100
AcDbArc
 50
153.0307524982
 51
180.0
  0
ARC
  5
9A
330
1F
100
AcDbEntity
  8
0
  6
Continuous
 62
     7
370
    25
100
AcDbCircle
 10
18.6810329512
 20
493.4235830486
 30
0.0
 40
2.0
100
AcDbArc
 50
0.0
 51
26.9692475018
  0
LINE
  5
9B
330
1F
100
AcDbEntity
  8
0
  6
Continuous
 62
     7
370
    25
100
AcDbLine
 10
220.6810329512
 20
376.9031729349
 30
0.0
 11
220.6810329512
 21
493.4235830486
 31
0.0
  0
LINE
  5
9C
330
1F
100
AcDbEntity
  8
0
  6
Continuous
 62
     7
370
    25
100
AcDbLine
 10
20.6810329512
 20
493.4235830486
 30
0.0
 11
20.6810329512
 21
376.9031729349
 31
0.0
  0
LINE
  5
9D
330
1F
100
AcDbEntity
  8
0
  6
Continuous
 62
     7
370
    25
100
AcDbLine
 10
278.1810329512
 20
756.9031729349
 30
0.0
 11
-36.8189670488
 21
756.9031729349
 31
0.0
  0
LINE
  5
9E
330
1F
100
AcDbEntity
  8
0
  6
Continuous
 62
     7
370
    25
100
AcDbLine
 10
220.6810329512
 20
376.9031729349
 30
0.0
 11
20.6810329512
 21
376.9031729349
 31
0.0
  0
LINE
  5
9F
330
1F
100
AcDbEntity
  8
0
  6
Continuous
 62
     1
370
    25
100
AcDbLine
 10
277.9635330856
 20
606.4757384165
 30
0.0
 11
-36.6014671833
 21
606.4757384165
 31
0.0
  0
LINE
  5
A0
330
1F
100
AcDbEntity
  8
0
  6
Continuous
 62
     1
370
    25
100
AcDbLine
 10
278.1810329512
 20
607.3827628212
 30
0.0
 11
-36.8189670488
 21
607.3827628212
 31
0.0
  0
LINE
  5
A1
330
1F
100
AcDbEntity
  8
0
  6
Continuous
 62
     1
370
    25
100
AcDbLine
 10
220.8985328167
 20
494.3306074533
 30
0.0
 11
20.4635330856
 21
494.3306074533
 31
0.0
  0
LINE
  5
A2
330
1F
100
AcDbEntity
  8
0
  6
Continuous
 62
     1
370
    25
100
AcDbLine
 10
220.6810329512
 20
493.4235830486
 30
0.0
 11
20.6810329512
 21
493.4235830486
 31
0.0
  0
ARC
  5
A3
330
1F
100
AcDbEntity
  8
0
  6
Continuous
 62
     7
370
    25
100
AcDbCircle
 10
682.9690720933
 20
-43.4579486778
 30
0.0
 40
2.000000000000032
100
AcDbArc
 50
243.0307524982
 51
270.0
  0
ARC
  5
A4
330
1F
100
AcDbEntity
  8
0
  6
Continuous
 62
     7
370
    25
100
AcDbCircle
 10
682.9690720933
 20
267.5420513222
 30
0.0
 40
2.000000000000057
100
AcDbArc
 50
90.0
 51
116.9692475018
  0
LINE
  5
A5
330
1F
100
AcDbEntity
  8
0
  6
Continuous
 62
     7
370
    25
100
AcDbLine
 10
682.9690720933
 20
-45.4579486778
 30
0.0
 11
832.489482207
 21
-45.4579486778
 31
0.0
  0
LINE
  5
A6
330
1F
100
AcDbEntity
  8
0
  6
Continuous
 62
     7
370
    25
100
AcDbLine
 10
832.489482207
 20
269.5420513222
 30
0.0
 11
682.9690720933
 21
269.5420513222
 31
0.0
  0
LINE
  5
A7
330
1F
100
AcDbEntity
  8
0
  6
Continuous
 62
     7
370
    25
100
AcDbLine
 10
682.0620476886
 20
269.3245514567
 30
0.0
 11
569.9169167254
 21
212.2595511878
 31
0.0
  0
LINE
  5
A8
330
1F
100
AcDbEntity
  8
0
  6
Continuous
 62
     7
370
    25
100
AcDbLine
 10
569.9169167254
 20
11.8245514567
 30
0.0
 11
682.0620476886
 21
-45.2404488122
 31
0.0
  0
ARC
  5
A9
330
1F
100
AcDbEntity
  8
0
  6
Continuous
 62
     7
370
    25
100
AcDbCircle
 10
569.0098923207
 20
10.0420513222
 30
0.0
 40
2.000000000000028
100
AcDbArc
 50
63.0307524982
 51
90.0
  0
ARC
  5
AA
330
1F
100
AcDbEntity
  8
0
  6
Continuous
 62
     7
370
    25
100
AcDbCircle
 10
569.0098923207
 20
214.0420513222
 30
0.0
 40
2.000000000000032
100
AcDbArc
 50
270.0
 51
296.9692475018
  0
LINE
  5
AB
330
1F
100
AcDbEntity
  8
0
  6
Continuous
 62
     7
370
    25
100
AcDbLine
 10
452.489482207
 20
12.0420513222
 30
0.0
 11
569.0098923207
 21
12.0420513222
 31
0.0
  0
LINE
  5
AC
330
1F
100
AcDbEntity
  8
0
  6
Continuous
 62
     7
370
    25
100
AcDbLine
 10
569.0098923207
 20
212.0420513222
 30
0.0
 11
452.489482207
 21
212.0420513222
 31
0.0
  0
LINE
  5
AD
330
1F
100
AcDbEntity
  8
0
  6
Continuous
 62
     7
370
    25
100
AcDbLine
 10
832.489482207
 20
112.0420513222
 30
0.0
 11
832.489482207
 21
269.5420513222
 31
0.0
  0
LINE
  5
AE
330
1F
100
AcDbEntity
  8
0
  6
Continuous
 62
     7
370
    25
100
AcDbLine
 10
832.489482207
 20
-45.4579486778
 30
0.0
 11
832.489482207
 21
112.0420513222
 31
0.0
  0
LINE
  5
AF
330
1F
100
AcDbEntity
  8
0
  6
Continuous
 62
     7
370
    25
100
AcDbLine
 10
452.489482207
 20
112.0420513222
 30
0.0
 11
452.489482207
 21
212.0420513222
 31
0.0
  0
LINE
  5
B0
330
1F
100
AcDbEntity
  8
0
  6
Continuous
 62
     7
370
    25
100
AcDbLine
 10
452.489482207
 20
12.0420513222
 30
0.0
 11
452.489482207
 21
112.0420513222
 31
0.0
  0
LINE
  5
B1
330
1F
100
AcDbEntity
  8
0
  6
Continuous
 62
     1
370
    25
100
AcDbLine
 10
682.0620476886
 20
112.0420513222
 30
0.0
 11
682.0620476886
 21
269.3245514567
 31
0.0
  0
LINE
  5
B2
330
1F
100
AcDbEntity
  8
0
  6
Continuous
 62
     1
370
    25
100
AcDbLine
 10
682.0620476886
 20
-45.2404488122
 30
0.0
 11
682.0620476886
 21
112.0420513222
 31
0.0
  0
LINE
  5
B3
330
1F
100
AcDbEntity
  8
0
  6
Continuous
 62
     1
370
    25
100
AcDbLine
 10
682.9690720933
 20
112.0420513222
 30
0.0
 11
682.9690720933
 21
269.5420513222
 31
0.0
  0
LINE
  5
B4
330
1F
100
AcDbEntity
  8
0
  6
Continuous
 62
     1
370
    25
100
AcDbLine
 10
682.9690720933
 20
-45.4579486778
 30
0.0
 11
682.9690720933
 21
112.0420513222
 31
0.0
  0
LINE
  5
B5
330
1F
100
AcDbEntity
  8
0
  6
Continuous
 62
     1
370
    25
100
AcDbLine
 10
569.9169167254
 20
112.0420513222
 30
0.0
 11
569.9169167254
 21
212.2595511878
 31
0.0
  0
LINE
  5
B6
330
1F
100
AcDbEntity
  8
0
  6
Continuous
 62
     1
370
    25
100
AcDbLine
 10
569.9169167254
 20
11.8245514567
 30
0.0
 11
569.9169167254
 21
112.0420513222
 31
0.0
  0
LINE
  5
B7
330
1F
100
AcDbEntity
  8
0
  6
Continuous
 62
     1
370
    25
100
AcDbLine
 10
569.0098923207
 20
112.0420513222
 30
0.0
 11
569.0098923207
 21
212.0420513222
 31
0.0
  0
LINE
  5
B8
330
1F
100
AcDbEntity
  8
0
  6
Continuous
 62
     1
370
    25
100
AcDbLine
 10
569.0098923207
 20
12.0420513222
 30
0.0
 11
569.0098923207
 21
112.0420513222
 31
0.0
  0
ARC
  5
B9
330
1F
100
AcDbEntity
  8
0
  6
Continuous
 62
     7
370
    25
100
AcDbCircle
 10
-34.8189670488
 20
-371.567574864
 30
0.0
 40
2.0
100
AcDbArc
 50
153.0307524982
 51
180.0
  0
ARC
  5
BA
330
1F
100
AcDbEntity
  8
0
  6
Continuous
 62
     7
370
    25
100
AcDbCircle
 10
276.1810329512
 20
-371.567574864
 30
0.0
 40
2.000000000000031
100
AcDbArc
 50
0.0
 51
26.9692475018
  0
LINE
  5
BB
330
1F
100
AcDbEntity
  8
0
  6
Continuous
 62
     7
370
    25
100
AcDbLine
 10
-36.8189670488
 20
-371.567574864
 30
0.0
 11
-36.8189670488
 21
-521.0879849777
 31
0.0
  0
LINE
  5
BC
330
1F
100
AcDbEntity
  8
0
  6
Continuous
 62
     7
370
    25
100
AcDbLine
 10
278.1810329512
 20
-521.0879849777
 30
0.0
 11
278.1810329512
 21
-371.567574864
 31
0.0
  0
LINE
  5
BD
330
1F
100
AcDbEntity
  8
0
  6
Continuous
 62
     7
370
    25
100
AcDbLine
 10
277.9635330856
 20
-370.6605504593
 30
0.0
 11
220.8985328167
 21
-258.5154194961
 31
0.0
  0
LINE
  5
BE
330
1F
100
AcDbEntity
  8
0
  6
Continuous
 62
     7
370
    25
100
AcDbLine
 10
20.4635330856
 20
-258.5154194961
 30
0.0
 11
-36.6014671833
 21
-370.6605504593
 31
0.0
  0
ARC
  5
BF
330
1F
100
AcDbEntity
  8
0
  6
Continuous
 62
     7
370
    25
100
AcDbCircle
 10
18.6810329512
 20
-257.6083950914
 30
0.0
 40
2.0
100
AcDbArc
 50
333.0307524982
 51
0.0
  0
ARC
  5
C0
330
1F
100
AcDbEntity
  8
0
  6
Continuous
 62
     7
370
    25
100
AcDbCircle
 10
222.6810329512
 20
-257.6083950914
 30
0.0
 40
2.0
100
AcDbArc
 50
180.0
 51
206.9692475018
  0
LINE
  5
C1
330
1F
100
AcDbEntity
  8
0
  6
Continuous
 62
     7
370
    25
100
AcDbLine
 10
20.6810329512
 20
-141.0879849777
 30
0.0
 11
20.6810329512
 21
-257.6083950914
 31
0.0
  0
LINE
  5
C2
330
1F
100
AcDbEntity
  8
0
  6
Continuous
 62
     7
370
    25
100
AcDbLine
 10
220.6810329512
 20
-257.6083950914
 30
0.0
 11
220.6810329512
 21
-141.0879849777
 31
0.0
  0
LINE
  5
C3
330
1F
100
AcDbEntity
  8
0
  6
Continuous
 62
     7
370
    25
100
AcDbLine
 10
-36.8189670488
 20
-521.0879849777
 30
0.0
 11
278.1810329512
 21
-521.0879849777
 31
0.0
  0
LINE
  5
C4
330
1F
100
AcDbEntity
  8
0
  6
Continuous
 62
     7
370
    25
100
AcDbLine
 10
20.6810329512
 20
-141.0879849777
 30
0.0
 11
220.6810329512
 21
-141.0879849777
 31
0.0
  0
LINE
  5
C5
330
1F
100
AcDbEntity
  8
0
  6
Continuous
 62
     1
370
    25
100
AcDbLine
 10
-36.6014671833
 20
-370.6605504593
 30
0.0
 11
277.9635330856
 21
-370.6605504593
 31
0.0
  0
LINE
  5
C6
330
1F
100
AcDbEntity
  8
0
  6
Continuous
 62
     1
370
    25
100
AcDbLine
 10
-36.8189670488
 20
-371.567574864
 30
0.0
 11
278.1810329512
 21
-371.567574864
 31
0.0
  0
LINE
  5
C7
330
1F
100
AcDbEntity
  8
0
  6
Continuous
 62
     1
370
    25
100
AcDbLine
 10
20.4635330856
 20
-258.5154194961
 30
0.0
 11
220.8985328167
 21
-258.5154194961
 31
0.0
  0
LINE
  5
C8
330
1F
100
AcDbEntity
  8
0
  6
Continuous
 62
     1
370
    25
100
AcDbLine
 10
20.6810329512
 20
-257.6083950914
 30
0.0
 11
220.6810329512
 21
-257.6083950914
 31
0.0
  0
LINE
  5
C9
330
1F
100
AcDbEntity
  8
0
  6
Continuous
 62
     7
370
    25
100
AcDbLine
 10
673.4372218709
 20
-185.4333280623
 30
0.0
 11
567.7103259537
 21
-124.3984902124
 31
0.0
  0
LINE
  5
CA
330
1F
100
AcDbEntity
  8
0
  6
Continuous
 62
     7
370
    25
100
AcDbLine
 10
410.2231255635
 20
-397.2038818623
 30
0.0
 11
515.9500214807
 21
-458.2387197122
 31
0.0
  0
SPLINE
  5
CB
330
1F
100
AcDbEntity
  8
0
  6
Continuous
 62
     7
370
    25
100
AcDbSpline
210
0.0
220
0.0
230
1.0
 70
     8
 71
     3
 72
    11
 73
     7
 74
     0
 42
0.00000001
 43
0.00000001
 40
0.0
 40
0.0
 40
0.0
 40
0.0
 40
0.1722885872864188
 40
0.5319438262728617
 40
0.8910252077267906
 40
1.0
 40
1.0
 40
1.0
 40
1.0
 10
690.6387151165112
 20
-201.0228118532234
 30
0.0
 10
690.2297120772735
 20
-200.4556186962477
 30
0.0
 10
688.9669085156672
 20
-198.7044005632913
 30
0.0
 10
686.6304214667495
 20
-196.046259883378
 30
0.0
 10
684.3853675271093
 20
-193.674753050647
 30
0.0
 10
683.0075908023149
 20
-192.4875165040885
 30
0.0
 10
682.686811073703
 20
-192.2110991351857
 30
0.0
  0
SPLINE
  5
CC
330
1F
100
AcDbEntity
  8
0
  6
Continuous
 62
     7
370
    25
100
AcDbSpline
210
0.0
220
0.0
230
1.0
 70
     8
 71
     3
 72
    10
 73
     6
 74
     0
 42
0.00000001
 43
0.00000001
 40
0.0
 40
0.0
 40
0.0
 40
0.0
 40
0.0635054457085793
 40
0.5632892566991654
 40
1.0
 40
1.0
 40
1.0
 40
1.0
 10
526.7049218095156
 20
-462.959297985363
 30
0.0
 10
526.871488204195
 20
-463.0181361148065
 30
0.0
 10
528.3489215109464
 20
-463.5400265736477
 30
0.0
 10
531.0842383749042
 20
-464.2304563527437
 30
0.0
 10
533.7140685416663
 20
-464.7066130795013
 30
0.0
 10
534.9404238702891
 20
-464.9286568245686
 30
0.0
  0
LINE
  5
CD
330
1F
100
AcDbEntity
  8
0
  6
Continuous
 62
     7
370
    25
100
AcDbLine
 10
550.2681482219
 20
-465.6337238224
 30
0.0
 11
645.9178126989
 21
-459.3736897272
 31
0.0
  0
LINE
  5
CE
330
1F
100
AcDbEntity
  8
0
  6
Continuous
 62
     7
370
    25
100
AcDbLine
 10
739.4145388
 20
-297.415061224
 30
0.0
 11
697.0029884972
 21
-211.4539843209
 31
0.0
  0
LINE
  5
CF
330
1F
100
AcDbEntity
  8
0
  6
Continuous
 62
     7
370
    25
100
AcDbLine
 10
807.6632392413
 20
-329.3138410456
 30
0.0
 11
734.2402522032
 21
-286.9276528439
 31
0.0
  0
LINE
  5
D0
330
1F
100
AcDbEntity
  8
0
  6
Continuous
 62
     7
370
    25
100
AcDbLine
 10
634.2483789396
 20
-460.13742532
 30
0.0
 11
707.6713659777
 21
-502.5236135217
 31
0.0
  0
LWPOLYLINE
  5
D1
330
1F
100
AcDbEntity
  8
0
  6
Continuous
 62
     7
370
    25
100
AcDbPolyline
 90
      134
 70
   128
 43
0.0
 10
377.5974077217
 20
-325.0933248434
 10
377.72166197
 20
-318.9482889113
 10
378.0941474549
 20
-312.6735040558
 10
378.7140330157
 20
-306.2829717756
 10
379.5799354454
 20
-299.790951847
 10
380.6899225769
 20
-293.211930505
 10
382.0415175951
 20
-286.5605881187
 10
383.6317045629
 20
-279.8517664339
 10
385.4569351514
 20
-273.100435455
 10
387.5131365574
 20
-266.3216600413
 10
389.7957205915
 20
-259.5305662915
 10
392.2995939164
 20
-252.7423077913
 10
395.0191694114
 20
-245.9720317996
 10
397.9483786403
 20
-239.2348454495
 10
401.0806853919
 20
-232.5457820382
 10
404.4091002649
 20
-225.9197674817
 10
407.9261962644
 20
-219.3715870095
 10
411.6241253739
 20
-212.9158521726
 10
415.4946360676
 20
-206.5669682399
 10
419.5290917227
 20
-200.3391020538
 10
423.7184898909
 20
-194.2461504192
 10
428.053482387
 20
-188.3017090936
 10
432.5243961475
 20
-182.51904245
 10
437.1212548156
 20
-176.9110538788
 10
441.8338010021
 20
-171.4902569955
 10
446.6515191738
 20
-166.2687477174
 10
451.5636591176
 20
-161.2581772736
 10
456.5592599285
 20
-156.469726206
 10
461.6271744678
 20
-151.9140794211
 10
466.7560942364
 20
-147.6014023485
 10
471.9345746087
 20
-143.5413182571
 10
477.1510603703
 20
-139.7428867819
 10
482.3939115015
 20
-136.2145837089
 10
487.6514291515
 20
-132.9642820619
 10
492.9118817425
 20
-129.9992345348
 10
498.1635311478
 20
-127.3260573081
 10
503.3946588842
 20
-124.9507152854
 10
508.5935922601
 20
-122.8785087836
 10
513.7487304223
 20
-121.1140617056
 10
518.8485702417
 20
-119.6613112229
 10
523.8817319816
 20
-118.5234989898
 10
528.8369846901
 20
-117.7031639104
 10
533.7032712608
 20
-117.2021364729
 10
538.4697331054
 20
-117.0215346655
 10
543.1257343838
 20
-117.1617614814
 10
547.6608857365
 20
-117.6225040198
 10
552.0650674676
 20
-118.4027341839
 10
556.3284521254
 20
-119.5007109751
 10
560.4415264318
 20
-120.913984378
 10
564.3951125095
 20
-122.6394008268
 10
568.1803883622
 20
-124.6731102428
 10
571.7889075593
 20
-127.0105746251
 10
575.2126180834
 20
-129.6465781767
 10
578.4438802976
 20
-132.5752389428
 10
581.4754839925
 20
-135.7900219362
 10
584.3006644747
 20
-139.2837537189
 10
586.9131176618
 20
-143.0486384092
 10
589.3070141494
 20
-147.0762750772
 10
591.4770122182
 20
-151.3576764906
 10
593.418269754
 20
-155.8832891687
 10
595.1264550523
 20
-160.6430147
 10
596.5977564836
 20
-165.6262322757
 10
597.8288909992
 20
-170.8218223888
 10
598.8171114565
 20
-176.2181916462
 10
599.5602127494
 20
-181.803298638
 10
600.0565367282
 20
-187.5646808065
 10
600.3049759
 20
-193.4894822554
 10
600.3049759
 20
-199.5644824358
 10
600.0565367282
 20
-205.7761256469
 10
599.5602127494
 20
-212.1105512837
 10
598.8171114565
 20
-218.5536247659
 10
597.8288909992
 20
-225.090969077
 10
596.5977564836
 20
-231.7079968456
 10
595.1264550523
 20
-238.3899428955
 10
593.418269754
 20
-245.1218971921
 10
591.4770122182
 20
-251.8888381131
 10
589.3070141494
 20
-258.6756659672
 10
586.9131176618
 20
-265.4672366877
 10
584.3006644747
 20
-272.2483956247
 10
581.4754839925
 20
-279.004011361
 10
578.4438802976
 20
-285.7190094763
 10
575.2126180834
 20
-292.378406184
 10
571.7889075593
 20
-298.9673417662
 10
568.1803883622
 20
-305.4711137311
 10
564.3951125095
 20
-311.8752096204
 10
560.4415264318
 20
-318.1653393919
 10
556.3284521254
 20
-324.3274673066
 10
552.0650674676
 20
-330.3478432476
 10
547.6608857365
 20
-336.213033402
 10
543.1257343838
 20
-341.9099502372
 10
538.4697331053
 20
-347.4258817041
 10
533.7032712608
 20
-352.7485196027
 10
528.8369846901
 20
-357.8659870466
 10
523.8817319816
 20
-362.7668649649
 10
518.8485702417
 20
-367.4402175826
 10
513.7487304223
 20
-371.8756168227
 10
508.5935922601
 20
-376.063165575
 10
503.3946588842
 20
-379.9935197809
 10
498.1635311478
 20
-383.6579092833
 10
492.9118817425
 20
-387.0481573964
 10
487.6514291515
 20
-390.1566991509
 10
482.3939115015
 20
-392.9765981747
 10
477.1510603703
 20
-395.5015621704
 10
471.9345746087
 20
-397.725956956
 10
466.7560942364
 20
-399.644819037
 10
461.6271744678
 20
-401.2538666817
 10
456.5592599285
 20
-402.5495094758
 10
451.5636591176
 20
-403.5288563334
 10
446.6515191738
 20
-404.1897219488
 10
441.8338010021
 20
-404.5306316723
 10
437.1212548156
 20
-404.5508248012
 10
432.5243961475
 20
-404.2502562766
 10
428.053482387
 20
-403.6295967845
 10
423.7184898909
 20
-402.6902312588
 10
419.5290917227
 20
-401.4342557913
 10
415.4946360676
 20
-399.8644729545
 10
411.6241253739
 20
-397.9843855476
 10
407.9261962644
 20
-395.7981887809
 10
404.4091002649
 20
-393.3107609142
 10
401.0806853919
 20
-390.5276523716
 10
397.9483786403
 20
-387.4550733566
 10
395.0191694114
 20
-384.0998799945
 10
392.2995939164
 20
-380.4695590335
 10
389.7957205915
 20
-376.5722111393
 10
387.5131365574
 20
-372.416532819
 10
385.4569351514
 20
-368.0117970159
 10
383.6317045629
 20
-363.3678324179
 10
382.0415175951
 20
-358.4950015259
 10
380.6899225769
 20
-353.4041775311
 10
379.5799354454
 20
-348.1067200523
 10
378.7140330157
 20
-342.6144497887
 10
378.0941474549
 20
-336.9396221428
 10
377.72166197
 20
-331.0948998741
 10
377.5974077217
 20
-325.0933248434
  0
LWPOLYLINE
  5
D2
330
1F
100
AcDbEntity
  8
0
  6
Continuous
 62
     7
370
    25
100
AcDbPolyline
 90
      126
 70
   128
 43
0.0
 10
390.8203045299
 20
-317.4599089978
 10
390.9442677189
 20
-311.6938633254
 10
391.3158441441
 20
-305.7992583333
 10
391.9340951711
 20
-299.7909843053
 10
392.7974590442
 20
-293.684218663
 10
393.9037548315
 20
-287.4943876265
 10
395.2501879336
 20
-281.2371272461
 10
396.8333571437
 20
-274.9282439046
 10
398.649263239
 20
-268.5836743889
 10
400.6933190831
 20
-262.2194456321
 10
402.9603612135
 20
-255.8516342286
 10
405.4446628851
 20
-249.4963258225
 10
408.1399485362
 20
-243.1695744744
 10
411.0394096414
 20
-236.8873621073
 10
414.1357219102
 20
-230.6655581349
 10
417.4210637892
 20
-224.519879374
 10
420.8871362196
 20
-218.4658503425
 10
424.5251836017
 20
-212.5187640432
 10
428.3260159121
 20
-206.6936433321
 10
432.2800319183
 20
-201.0052029699
 10
436.377243433
 20
-195.4678124504
 10
440.6073005441
 20
-190.0954597027
 10
444.9595177604
 20
-184.9017157562
 10
449.4229010033
 20
-179.8997004588
 10
453.9861753795
 20
-175.1020493352
 10
458.6378136619
 20
-170.5208816686
 10
463.3660654084
 20
-166.167769886
 10
468.1589866447
 20
-162.0537103257
 10
473.004470036
 20
-158.1890954592
 10
477.8902754705
 20
-154.5836876389
 10
482.8040609797
 20
-151.246594438
 10
487.733413915
 20
-148.1862456435
 10
492.6658823031
 20
-145.410371962
 10
497.5890063007
 20
-142.9259854914
 10
502.4903496694
 20
-140.7393620076
 10
507.3575311903
 20
-138.8560251112
 10
512.1782559407
 20
-137.2807322746
 10
516.9403463513
 20
-136.0174628244
 10
521.6317729685
 20
-135.0694078887
 10
526.2406848415
 20
-134.4389623366
 10
530.755439459
 20
-134.1277187283
 10
535.1646321589
 20
-134.1364632922
 10
539.4571249378
 20
-134.4651739387
 10
543.6220745865
 20
-135.1130203162
 10
547.6489600805
 20
-136.0783659085
 10
551.5276091578
 20
-137.3587721689
 10
555.248224014
 20
-138.95100468
 10
558.8014060532
 20
-140.8510413244
 10
562.1781796292
 20
-143.0540824446
 10
565.3700147189
 20
-145.5545629675
 10
568.3688484697
 20
-148.3461664623
 10
571.1671055674
 20
-151.4218410962
 10
573.7577173718
 20
-154.7738174483
 10
576.1341397724
 20
-158.3936281353
 10
578.2903697202
 20
-162.2721292014
 10
580.2209603911
 20
-166.3995232162
 10
581.9210349456
 20
-170.7653840241
 10
583.3862988478
 20
-175.358683082
 10
584.6130507138
 20
-180.1678173177
 10
585.5981916621
 20
-185.1806384408
 10
586.339233141
 20
-190.3844836301
 10
586.8343032155
 20
-195.766207521
 10
587.0821512957
 20
-201.3122154119
 10
587.0821512957
 20
-207.0084976055
 10
586.8343032155
 20
-212.8406647987
 10
586.339233141
 20
-218.7939844309
 10
585.5981916621
 20
-224.8534179001
 10
584.6130507138
 20
-231.0036585514
 10
583.3862988478
 20
-237.2291703432
 10
581.9210349456
 20
-243.5142270924
 10
580.2209603911
 20
-249.8429522002
 10
578.2903697202
 20
-256.1993587578
 10
576.1341397724
 20
-262.5673899304
 10
573.7577173718
 20
-268.9309595187
 10
571.1671055674
 20
-275.2739925936
 10
568.3688484697
 20
-281.5804661031
 10
565.3700147189
 20
-287.8344493478
 10
562.1781796292
 20
-294.0201442232
 10
558.8014060532
 20
-300.1219251272
 10
555.248224014
 20
-306.1243784317
 10
551.5276091578
 20
-312.0123414187
 10
547.6489600805
 20
-317.7709405827
 10
543.6220745865
 20
-323.3856292024
 10
539.4571249378
 20
-328.8422240871
 10
535.1646321589
 20
-334.1269414045
 10
530.755439459
 20
-339.2264315001
 10
526.2406848415
 20
-344.1278126193
 10
521.6317729685
 20
-348.818703448
 10
516.9403463513
 20
-353.2872543889
 10
512.1782559407
 20
-357.5221774944
 10
507.3575311903
 20
-361.5127749813
 10
502.4903496694
 20
-365.2489662539
 10
497.5890063007
 20
-368.721313369
 10
492.6658823031
 20
-371.9210448762
 10
487.733413915
 20
-374.8400779761
 10
482.8040609797
 20
-377.4710389378
 10
477.8902754705
 20
-379.8072817255
 10
473.004470036
 20
-381.8429047872
 10
468.1589866447
 20
-383.5727659624
 10
463.3660654084
 20
-384.9924954716
 10
458.6378136619
 20
-386.0985069548
 10
453.9861753795
 20
-386.8880065311
 10
449.4229010033
 20
-387.3589998561
 10
444.9595177604
 20
-387.5102971596
 10
440.6073005441
 20
-387.3415162516
 10
436.377243433
 20
-386.8530834873
 10
432.2800319183
 20
-386.0462326903
 10
428.3260159121
 20
-384.9230020356
 10
424.5251836017
 20
-383.4862289015
 10
420.8871362196
 20
-381.7395427015
 10
417.4210637892
 20
-379.6873557166
 10
414.1357219102
 20
-377.3348519491
 10
411.0394096414
 20
-374.6879740279
 10
408.1399485362
 20
-371.7534081962
 10
405.4446628851
 20
-368.538567422
 10
402.9603612135
 20
-365.0515726721
 10
400.6933190831
 20
-361.3012323979
 10
398.649263239
 20
-357.2970202844
 10
396.8333571437
 20
-353.049051319
 10
395.2501879336
 20
-348.5680562398
 10
393.9037548315
 20
-343.8653544293
 10
392.7974590442
 20
-338.9528253206
 10
391.9340951711
 20
-333.8428783884
 10
391.3158441441
 20
-328.5484218021
 10
390.9442677189
 20
-323.0828298187
 10
390.8203045299
 20
-317.4599089978
  0
ARC
  5
D3
330
1F
100
AcDbEntity
  8
0
  6
Continuous
 62
     7
370
    25
100
AcDbCircle
 10
646.8213998495
 20
-231.4779439906
 30
0.0
 40
53.18372531013295
100
AcDbArc
 50
47.8942400349
 51
59.9701905594
  0
ARC
  5
D4
330
1F
100
AcDbEntity
  8
0
  6
Continuous
 62
     7
370
    25
100
AcDbCircle
 10
542.5543592531
 20
-412.0748130397
 30
0.0
 40
53.28130129392062
100
AcDbArc
 50
240.0450795139
 51
252.3942086406
  0
ARC
  5
D5
330
1F
100
AcDbEntity
  8
0
  6
Continuous
 62
     7
370
    25
100
AcDbCircle
 10
624.1065427831
 20
-248.0710483726
 30
0.0
 40
81.50973850994295
100
AcDbArc
 50
9.4161776407
 51
35.1188947969
  0
ARC
  5
D6
330
1F
100
AcDbEntity
  8
0
  6
Continuous
 62
     7
370
    25
100
AcDbCircle
 10
546.0348404021
 20
-387.6849956969
 30
0.0
 40
78.02663590577585
100
AcDbArc
 50
262.0039249044
 51
290.0159250678
  0
ARC
  5
D7
330
1F
100
AcDbEntity
  8
0
  6
Continuous
 62
     7
370
    25
100
AcDbCircle
 10
691.7724549961
 20
-320.7213679327
 30
0.0
 40
53.03727068366221
100
AcDbArc
 50
15.21514843
 51
26.0676855409
  0
ARC
  5
D8
330
1F
100
AcDbEntity
  8
0
  6
Continuous
 62
     7
370
    25
100
AcDbCircle
 10
642.025224605
 20
-404.757345325
 30
0.0
 40
54.75488396407672
100
AcDbArc
 50
274.0766621064
 51
286.5792380853
  0
LWPOLYLINE
  5
D9
330
1F
100
AcDbEntity
  8
0
  6
Continuous
 62
     7
370
    25
100
AcDbPolyline
 90
       55
 70
   128
 43
0.0
 10
807.6632392413
 20
-329.3138410456
 10
808.4027273102
 20
-329.7535557574
 10
811.2314362253
 20
-331.6912208983
 10
813.8719991675
 20
-333.9247382273
 10
816.3151410632
 20
-336.4462624333
 10
818.5522802873
 20
-339.2469365705
 10
820.5755588068
 20
-342.316923169
 10
822.3778697821
 20
-345.6454387887
 10
823.9528825301
 20
-349.2207918973
 10
825.295064761
 20
-353.0304239364
 10
826.399702011
 20
-357.0609534347
 10
827.2629142013
 20
-361.2982230103
 10
827.8816692676
 20
-365.7273490992
 10
828.2537938103
 20
-370.3327742345
 10
828.3779807282
 20
-375.0983216925
 10
828.2537938103
 20
-380.0072523139
 10
827.8816692676
 20
-385.0423233009
 10
827.2629142013
 20
-390.1858487829
 10
826.399702011
 20
-395.4197619393
 10
825.295064761
 20
-400.725678459
 10
823.9528825301
 20
-406.0849611168
 10
822.3778697821
 20
-411.4787852369
 10
820.5755588068
 20
-416.8882048154
 10
818.5522802873
 20
-422.2942190687
 10
816.3151410632
 20
-427.6778391746
 10
813.8719991675
 20
-433.0201549711
 10
811.2314362253
 20
-438.3024013792
 10
808.4027273102
 20
-443.5060243156
 10
805.3958083654
 20
-448.612745865
 10
802.2212413035
 20
-453.6046284818
 10
798.8901769069
 20
-458.4641379962
 10
795.414315661
 20
-463.1742052038
 10
791.805866655
 20
-467.7182858216
 10
788.0775046977
 20
-472.080418601
 10
784.2423257965
 20
-476.2452813912
 10
780.3138011571
 20
-480.19824496
 10
776.3057298656
 20
-483.9254243786
 10
772.2321904186
 20
-487.4137277934
 10
768.107491272
 20
-490.6509024113
 10
763.9461205819
 20
-493.6255775385
 10
759.7626953147
 20
-496.3273045201
 10
755.5719099043
 20
-498.7465934416
 10
751.3884846371
 20
-500.8749464623
 10
747.227113947
 20
-502.7048876647
 10
743.1024148004
 20
-504.2299893136
 10
739.0288753534
 20
-505.4448944337
 10
735.0208040619
 20
-506.3453356266
 10
731.0922794225
 20
-506.9281500597
 10
727.2571005213
 20
-507.1912905761
 10
723.528738564
 20
-507.1338328851
 10
719.920289558
 20
-506.7559788089
 10
716.4444283121
 20
-506.0590555737
 10
713.1133639155
 20
-505.0455111479
 10
709.9387968536
 20
-503.7189056432
 10
707.6713659777
 20
-502.5236135217
  0
LWPOLYLINE
  5
DA
330
1F
100
AcDbEntity
  8
0
  6
Continuous
 62
     1
370
    25
100
AcDbPolyline
 90
       63
 70
   128
 43
0.0
 10
682.4811518449
 20
-192.0204893656
 10
684.1707762148
 20
-193.6100767928
 10
687.2023799097
 20
-196.8248597862
 10
690.0275603919
 20
-200.3185915689
 10
692.640013579
 20
-204.0834762592
 10
695.0339100666
 20
-208.1111129272
 10
697.2039081354
 20
-212.3925143406
 10
699.1451656712
 20
-216.9181270187
 10
700.8533509695
 20
-221.67785255
 10
702.3246524008
 20
-226.6610701257
 10
703.5557869164
 20
-231.8566602388
 10
704.5440073737
 20
-237.2530294962
 10
705.2871086666
 20
-242.8381364879
 10
705.7834326454
 20
-248.5995186565
 10
706.0318718172
 20
-254.5243201053
 10
706.0318718172
 20
-260.5993202857
 10
705.7834326454
 20
-266.8109634968
 10
705.2871086666
 20
-273.1453891337
 10
704.5440073737
 20
-279.5884626158
 10
703.5557869164
 20
-286.1258069269
 10
702.3246524008
 20
-292.7428346956
 10
700.8533509695
 20
-299.4247807454
 10
699.1451656712
 20
-306.156735042
 10
697.2039081354
 20
-312.923675963
 10
695.0339100666
 20
-319.7105038171
 10
692.640013579
 20
-326.5020745377
 10
690.0275603919
 20
-333.2832334747
 10
687.2023799097
 20
-340.038849211
 10
684.1707762148
 20
-346.7538473262
 10
680.9395140006
 20
-353.413244034
 10
677.5158034765
 20
-360.0021796162
 10
673.9072842794
 20
-366.5059515811
 10
670.1220084267
 20
-372.9100474703
 10
666.168422349
 20
-379.2001772419
 10
662.0553480426
 20
-385.3623051566
 10
657.7919633848
 20
-391.3826810976
 10
653.3877816537
 20
-397.247871252
 10
648.8526303009
 20
-402.9447880872
 10
644.1966290225
 20
-408.460719554
 10
639.4301671779
 20
-413.7833574526
 10
634.5638806073
 20
-418.9008248966
 10
629.6086278988
 20
-423.8017028149
 10
624.5754661589
 20
-428.4750554326
 10
619.4756263395
 20
-432.9104546726
 10
614.3204881773
 20
-437.0980034249
 10
609.1215548014
 20
-441.0283576309
 10
603.890427065
 20
-444.6927471333
 10
598.6387776596
 20
-448.0829952463
 10
593.3783250687
 20
-451.1915370008
 10
588.1208074187
 20
-454.0114360246
 10
582.8779562875
 20
-456.5364000203
 10
577.6614705259
 20
-458.7607948059
 10
572.4829901536
 20
-460.6796568869
 10
567.354070385
 20
-462.2887045317
 10
562.2861558457
 20
-463.5843473257
 10
557.2905550348
 20
-464.5636941833
 10
552.378415091
 20
-465.2245597987
 10
547.5606969193
 20
-465.5654695223
 10
542.8481507328
 20
-465.5856626512
 10
538.2512920647
 20
-465.2850941266
 10
533.7803783042
 20
-464.6644346344
 10
529.4453858081
 20
-463.7250691087
 10
526.4385645968
 20
-462.8604235034
  0
LWPOLYLINE
  5
DB
330
1F
100
AcDbEntity
  8
0
  6
Continuous
 62
     1
370
    25
100
AcDbPolyline
 90
       30
 70
   128
 43
0.0
 10
496.312618312
 20
-369.578459745
 10
496.5340581701
 20
-366.5404403781
 10
497.1523091971
 20
-360.5321663501
 10
498.0156730703
 20
-354.4254007078
 10
499.1219688575
 20
-348.2355696713
 10
500.4684019596
 20
-341.9783092909
 10
502.0515711697
 20
-335.6694259494
 10
503.867477265
 20
-329.3248564337
 10
505.9115331091
 20
-322.9606276769
 10
508.1785752395
 20
-316.5928162734
 10
510.6628769111
 20
-310.2375078673
 10
513.3581625622
 20
-303.9107565192
 10
516.2576236674
 20
-297.6285441521
 10
519.3539359362
 20
-291.4067401797
 10
522.6392778152
 20
-285.2610614188
 10
526.1053502456
 20
-279.2070323873
 10
529.7433976277
 20
-273.259946088
 10
533.5442299381
 20
-267.4348253769
 10
537.4982459444
 20
-261.7463850147
 10
541.595457459
 20
-256.2089944952
 10
545.8255145701
 20
-250.8366417475
 10
550.1777317864
 20
-245.642897801
 10
554.6411150293
 20
-240.6408825036
 10
559.2043894055
 20
-235.84323138
 10
563.8560276879
 20
-231.2620637134
 10
568.5842794344
 20
-226.9089519308
 10
573.3772006707
 20
-222.7948923705
 10
578.222684062
 20
-218.930277504
 10
583.1084894965
 20
-215.3248696837
 10
586.8390472312
 20
-212.7650943744
  0
LWPOLYLINE
  5
DC
330
1F
100
AcDbEntity
  8
0
  6
Continuous
 62
     1
370
    25
100
AcDbPolyline
 90
       44
 70
   128
 43
0.0
 10
704.5180196217
 20
-234.7356869377
 10
705.0336724231
 20
-237.7400855523
 10
705.7757475291
 20
-243.317479782
 10
706.2713861085
 20
-249.070905761
 10
706.5194821979
 20
-254.9875253463
 10
706.5194821979
 20
-261.0541362459
 10
706.2713861085
 20
-267.2572014788
 10
705.7757475291
 20
-273.5828795809
 10
705.0336724231
 20
-280.0170554909
 10
704.0468166503
 20
-286.5453720464
 10
702.8173822718
 20
-293.1532620204
 10
701.3481126364
 20
-299.8259806267
 10
699.6422862593
 20
-306.5486384207
 10
697.703709506
 20
-313.3062345243
 10
695.5367080993
 20
-320.0836900981
 10
693.1461174668
 20
-326.8658819887
 10
690.5372719508
 20
-333.6376764739
 10
687.715992906
 20
-340.3839630323
 10
684.6885757089
 20
-347.0896880607
 10
681.4617757111
 20
-353.7398884644
 10
678.0427931653
 20
-360.3197250459
 10
674.4392571583
 20
-366.814515617
 10
670.6592085881
 20
-373.2097677603
 10
666.7110822211
 20
-379.4912111675
 10
662.603687871
 20
-385.6448294823
 10
658.3461907407
 20
-391.6568915759
 10
653.9480909711
 20
-397.513982187
 10
649.4192024425
 20
-403.2030318562
 10
644.7696308762
 20
-408.711346089
 10
640.0097512844
 20
-414.0266336827
 10
635.1501848196
 20
-419.1370341522
 10
630.2017750749
 20
-424.0311441956
 10
625.1755638874
 20
-428.6980431399
 10
620.0827666995
 20
-433.1273173086
 10
614.9347475333
 20
-437.3090832591
 10
609.7429936323
 20
-441.2340098363
 10
604.5190898298
 20
-444.8933389944
 10
599.2746926977
 20
-448.2789053392
 10
594.0215045368
 20
-451.3831543482
 10
588.7712472639
 20
-454.1991592281
 10
583.5356362559
 20
-456.720636371
 10
578.3263542083
 20
-458.9419593752
 10
573.1550250664
 20
-460.8581716007
 10
572.7418997772
 20
-460.9986294242
  0
LWPOLYLINE
  5
DD
330
1F
100
AcDbEntity
  8
0
  6
Continuous
 62
     1
370
    25
100
AcDbPolyline
 90
       37
 70
   128
 43
0.0
 10
742.950617685
 20
-306.802038015
 10
743.515459642
 20
-308.9985828101
 10
744.3805493176
 20
-313.2450684413
 10
745.0006501754
 20
-317.6838278734
 10
745.3735840884
 20
-322.2992698022
 10
745.4980411127
 20
-327.0751823195
 10
745.3735840884
 20
-331.9947898584
 10
745.0006501754
 20
-337.0408121181
 10
744.3805493176
 20
-342.1955247611
 10
743.515459642
 20
-347.4408216715
 10
742.4084198075
 20
-352.7582785525
 10
741.063318332
 20
-358.1292176429
 10
739.4848799334
 20
-363.5347733233
 10
737.6786489342
 20
-368.9559583821
 10
735.6509697866
 20
-374.3737307091
 10
733.4089647876
 20
-379.7690601815
 10
730.9605090616
 20
-385.1229955077
 10
728.3142028986
 20
-390.4167307946
 10
725.4793415454
 20
-395.6316716039
 10
722.465882556
 20
-400.7495002658
 10
719.2844108149
 20
-405.7522402206
 10
715.9461013578
 20
-410.6223191616
 10
712.4626801183
 20
-415.342630759
 10
708.8463827406
 20
-419.8965947461
 10
705.1099116011
 20
-424.2682151584
 10
701.2663911909
 20
-428.4421365196
 10
697.3293220157
 20
-432.4036977789
 10
693.3125331745
 20
-436.1389838077
 10
689.2301337847
 20
-439.6348742777
 10
685.096463423
 20
-442.879089746
 10
680.9260417573
 20
-445.8602347877
 10
676.7335175458
 20
-448.5678380218
 10
672.5336171826
 20
-450.9923888934
 10
668.3410929711
 20
-453.1253710791
 10
664.1706713054
 20
-454.9592924012
 10
660.0370009437
 20
-456.4877111441
 10
657.6490427289
 20
-457.235851641
  0
LWPOLYLINE
  5
DE
330
1F
100
AcDbEntity
  8
0
  6
Continuous
 62
     1
370
    25
100
AcDbPolyline
 90
       30
 70
   128
 43
0.0
 10
498.4524856055
 20
-368.1304586563
 10
498.5280002572
 20
-367.1941179063
 10
499.1537742934
 20
-361.1589822811
 10
500.0276078932
 20
-355.0245274481
 10
501.1472579383
 20
-348.8065004651
 10
502.509850303
 20
-342.520862918
 10
504.1118872325
 20
-336.1837499483
 10
505.9492563207
 20
-329.8114288341
 10
508.0172410676
 20
-323.4202572324
 10
510.3105329861
 20
-317.0266411889
 10
512.8232452286
 20
-310.6469930244
 10
515.5489276989
 20
-304.2976892042
 10
518.4805836092
 20
-297.9950283001
 10
521.6106874407
 20
-291.7551891523
 10
524.9312042619
 20
-285.5941893383
 10
528.4336103537
 20
-279.5278440565
 10
532.1089150899
 20
-273.5717255279
 10
535.9476840158
 20
-267.7411230236
 10
539.9400630669
 20
-262.0510036166
 10
544.0758038632
 20
-256.5159737616
 10
548.3442900176
 20
-251.150241801
 10
552.7345643871
 20
-245.9675814918
 10
557.2353572006
 20
-240.9812966487
 10
561.8351149874
 20
-236.2041869933
 10
566.5220302352
 20
-231.6485152976
 10
571.2840716999
 20
-227.3259759055
 10
576.1090152892
 20
-223.2476647136
 10
580.9844754421
 20
-219.4240506884
 10
585.8979369225
 20
-215.864948992
 10
586.6552169892
 20
-215.3422916173
  0
LWPOLYLINE
  5
DF
330
1F
100
AcDbEntity
  8
0
  6
Continuous
 62
     1
370
    25
100
AcDbPolyline
 90
       45
 70
   128
 43
0.0
 10
737.7562463051
 20
-294.0539813375
 10
738.1831866688
 20
-294.7528191641
 10
739.985497644
 20
-298.0813347839
 10
741.560510392
 20
-301.6566878924
 10
742.902692623
 20
-305.4663199316
 10
744.007329873
 20
-309.4968494299
 10
744.8705420633
 20
-313.7341190054
 10
745.4892971296
 20
-318.1632450943
 10
745.8614216722
 20
-322.7686702296
 10
745.9856085901
 20
-327.5342176876
 10
745.8614216722
 20
-332.443148309
 10
745.4892971296
 20
-337.478219296
 10
744.8705420633
 20
-342.6217447781
 10
744.007329873
 20
-347.8556579344
 10
742.902692623
 20
-353.1615744541
 10
741.560510392
 20
-358.5208571119
 10
739.985497644
 20
-363.9146812321
 10
738.1831866688
 20
-369.3241008106
 10
736.1599081493
 20
-374.7301150639
 10
733.9227689251
 20
-380.1137351698
 10
731.4796270294
 20
-385.4560509663
 10
728.8390640872
 20
-390.7382973743
 10
726.0103551721
 20
-395.9419203107
 10
723.0034362274
 20
-401.0486418602
 10
719.8288691654
 20
-406.040524477
 10
716.4978047689
 20
-410.9000339913
 10
713.0219435229
 20
-415.6101011989
 10
709.413494517
 20
-420.1541818168
 10
705.6851325597
 20
-424.5163145961
 10
701.8499536585
 20
-428.6811773864
 10
697.9214290191
 20
-432.6341409552
 10
693.9133577276
 20
-436.3613203737
 10
689.8398182806
 20
-439.8496237885
 10
685.715119134
 20
-443.0867984064
 10
681.5537484439
 20
-446.0614735336
 10
677.3703231767
 20
-448.7632005152
 10
673.1795377662
 20
-451.1824894367
 10
668.996112499
 20
-453.3108424574
 10
664.834741809
 20
-455.1407836599
 10
660.7100426623
 20
-456.6658853087
 10
656.6365032153
 20
-457.8807904289
 10
652.6284319239
 20
-458.7812316217
 10
648.6999072845
 20
-459.3640460549
 10
644.8647283833
 20
-459.6271865712
 10
642.1779088377
 20
-459.6184571899
  0
CIRCLE
  5
E0
330
1F
100
AcDbEntity
  8
0
  6
Continuous
 62
     7
370
    25
100
AcDbCircle
 10
136.2965933466
 20
112.0420513222
 30
0.0
 40
157.5
  0
CIRCLE
  5
E1
330
1F
100
AcDbEntity
  8
0
  6
Continuous
 62
     7
370
    25
100
AcDbCircle
 10
136.2965933466
 20
112.0420513222
 30
0.0
 40
138.8
  0
CIRCLE
  5
E2
330
1F
100
AcDbEntity
  8
0
  6
Continuous
 62
     7
370
    25
100
AcDbCircle
 10
136.2965933466
 20
112.0420513222
 30
0.0
 40
138.2562503361072
  0
CIRCLE
  5
E3
330
1F
100
AcDbEntity
  8
0
  6
Continuous
 62
     7
370
    25
100
AcDbCircle
 10
136.2965933466
 20
112.0420513222
 30
0.0
 40
88.64374966389292
  0
CIRCLE
  5
E4
330
1F
100
AcDbEntity
  8
0
  6
Continuous
 62
     7
370
    25
100
AcDbCircle
 10
136.2965933466
 20
112.0420513222
 30
0.0
 40
88.10000000000005
  0
INSERT
  5
F0
330
1F
100
AcDbEntity
  8
FORMAT
 62
     7
100
AcDbBlockReference
  2
SW_CENTERMARKSYMBOL_0
 10
136.2965933466
 20
112.0420513222
 30
0.0
  0
ENDSEC
  0
SECTION
  2
OBJECTS
  0
DICTIONARY
  5
C
330
0
100
AcDbDictionary
281
     1
  3
ACAD_GROUP
350
D
  3
ACAD_LAYOUT
350
1A
  3
ACAD_MLINESTYLE
350
17
  3
ACAD_PLOTSETTINGS
350
19
  3
ACAD_PLOTSTYLENAME
350
E
  3
ACAD_SCALELIST
350
47
  3
DWGPROPS
350
F1
  0
DICTIONARY
  5
D
102
{ACAD_REACTORS
330
C
102
}
330
C
100
AcDbDictionary
281
     1
  0
DICTIONARY
  5
1A
102
{ACAD_REACTORS
330
C
102
}
330
C
100
AcDbDictionary
281
     1
  3
Layout1
350
1E
  3
Layout2
350
26
  3
Model
350
22
  0
DICTIONARY
  5
17
102
{ACAD_REACTORS
330
C
102
}
330
C
100
AcDbDictionary
281
     1
  3
Standard
350
18
  0
DICTIONARY
  5
19
102
{ACAD_REACTORS
330
C
102
}
330
C
100
AcDbDictionary
281
     1
  0
ACDBDICTIONARYWDFLT
  5
E
102
{ACAD_REACTORS
330
C
102
}
330
C
100
AcDbDictionary
281
     1
  3
Normal
350
F
100
AcDbDictionaryWithDefault
340
F
  0
DICTIONARY
  5
47
102
{ACAD_REACTORS
330
C
102
}
330
C
100
AcDbDictionary
281
     1
  3
A0
350
48
  3
A1
350
49
  3
A2
350
4A
  3
A3
350
4B
  3
A4
350
4C
  3
A5
350
4D
  3
A6
350
4E
  3
A7
350
4F
  3
A8
350
50
  3
A9
350
51
  3
B0
350
52
  3
B1
350
53
  3
B2
350
54
  3
B3
350
55
  3
B4
350
56
  3
B5
350
57
  3
B6
350
58
  3
B7
350
59
  3
B8
350
5A
  3
B9
350
5B
  3
C0
350
5C
  3
C1
350
5D
  3
C2
350
5E
  3
C3
350
5F
  3
C4
350
60
  3
C5
350
61
  3
C6
350
62
  3
C7
350
63
  3
C8
350
64
  3
C9
350
65
  3
D0
350
66
  3
D1
350
67
  3
D2
350
68
  0
XRECORD
  5
F1
102
{ACAD_REACTORS
330
C
102
}
330
C
100
AcDbXrecord
280
     1
  1
DWGPROPS COOKIE
  2

  3

  4

  6

  7

  8
b.kav
  9

300
=
301
=
302
=
303
=
304
=
305
=
306
=
307
=
308
=
309
=
 40
0.0
 41
2459853.485613415
 42
2459853.485613553
  1

 90
        0
  0
LAYOUT
  5
1E
102
{ACAD_REACTORS
330
1A
102
}
330
1A
100
AcDbPlotSettings
  1

  2
none_device
  4

  6

 40
0.0
 41
0.0
 42
0.0
 43
0.0
 44
0.0
 45
0.0
 46
0.0
 47
0.0
 48
0.0
 49
0.0
140
0.0
141
0.0
142
1.0
143
1.0
 70
   688
 72
     1
 73
     0
 74
     5
  7

 75
    16
147
1.0
148
0.0
149
0.0
100
AcDbLayout
  1
Layout1
 70
     1
 71
     1
 10
0.0
 20
0.0
 11
420.0
 21
297.0
 12
0.0
 22
0.0
 32
0.0
 14
1.0000000000E+20
 24
1.0000000000E+20
 34
1.0000000000E+20
 15
-1.0000000000E+20
 25
-1.0000000000E+20
 35
-1.0000000000E+20
146
0.0
 13
0.0
 23
0.0
 33
0.0
 16
1.0
 26
0.0
 36
0.0
 17
0.0
 27
1.0
 37
0.0
 76
     0
330
1B
  0
LAYOUT
  5
26
102
{ACAD_REACTORS
330
1A
102
}
330
1A
100
AcDbPlotSettings
  1

  2
none_device
  4

  6

 40
0.0
 41
0.0
 42
0.0
 43
0.0
 44
0.0
 45
0.0
 46
0.0
 47
0.0
 48
0.0
 49
0.0
140
0.0
141
0.0
142
1.0
143
1.0
 70
   688
 72
     1
 73
     0
 74
     5
  7

 75
    16
147
1.0
148
0.0
149
0.0
100
AcDbLayout
  1
Layout2
 70
     1
 71
     2
 10
0.0
 20
0.0
 11
0.0
 21
0.0
 12
0.0
 22
0.0
 32
0.0
 14
0.0
 24
0.0
 34
0.0
 15
0.0
 25
0.0
 35
0.0
146
0.0
 13
0.0
 23
0.0
 33
0.0
 16
1.0
 26
0.0
 36
0.0
 17
0.0
 27
1.0
 37
0.0
 76
     0
330
23
  0
LAYOUT
  5
22
102
{ACAD_REACTORS
330
1A
102
}
330
1A
100
AcDbPlotSettings
  1

  2
none_device
  4
Letter_(8.50_x_11.00_Inches)
  6

 40
6.35
 41
6.35
 42
6.35000508
 43
6.35000508
 44
215.9
 45
279.4
 46
0.0
 47
0.0
 48
0.0
 49
0.0
140
0.0
141
0.0
142
1.0
143
1.0
 70
  1712
 72
     1
 73
     0
 74
     0
  7

 75
     0
147
1.0
148
0.0
149
0.0
100
AcDbLayout
  1
Model
 70
     1
 71
     0
 10
0.0
 20
0.0
 11
279.4
 21
215.9
 12
0.0
 22
0.0
 32
0.0
 14
0.0
 24
0.0
 34
0.0
 15
279.4
 25
215.9
 35
0.0
146
0.0
 13
0.0
 23
0.0
 33
0.0
 16
1.0
 26
0.0
 36
0.0
 17
0.0
 27
1.0
 37
0.0
 76
     0
330
1F
331
29
  0
MLINESTYLE
  5
18
102
{ACAD_REACTORS
330
17
102
}
330
17
100
AcDbMlineStyle
  2
Standard
 70
     0
  3

 62
   256
 51
90.0
 52
90.0
 71
     2
 49
0.5
 62
   256
  6
BYLAYER
 49
-0.5
 62
   256
  6
BYLAYER
  0
ACDBPLACEHOLDER
  5
F
102
{ACAD_REACTORS
330
E
102
}
330
E
  0
SCALE
  5
48
102
{ACAD_REACTORS
330
47
102
}
330
47
100
AcDbScale
 70
     0
300
1:1
140
1.0
141
1.0
290
     1
  0
SCALE
  5
49
102
{ACAD_REACTORS
330
47
102
}
330
47
100
AcDbScale
 70
     0
300
1:2
140
1.0
141
2.0
290
     0
  0
SCALE
  5
4A
102
{ACAD_REACTORS
330
47
102
}
330
47
100
AcDbScale
 70
     0
300
1:4
140
1.0
141
4.0
290
     0
  0
SCALE
  5
4B
102
{ACAD_REACTORS
330
47
102
}
330
47
100
AcDbScale
 70
     0
300
1:5
140
1.0
141
5.0
290
     0
  0
SCALE
  5
4C
102
{ACAD_REACTORS
330
47
102
}
330
47
100
AcDbScale
 70
     0
300
1:8
140
1.0
141
8.0
290
     0
  0
SCALE
  5
4D
102
{ACAD_REACTORS
330
47
102
}
330
47
100
AcDbScale
 70
     0
300
1:10
140
1.0
141
10.0
290
     0
  0
SCALE
  5
4E
102
{ACAD_REACTORS
330
47
102
}
330
47
100
AcDbScale
 70
     0
300
1:16
140
1.0
141
16.0
290
     0
  0
SCALE
  5
4F
102
{ACAD_REACTORS
330
47
102
}
330
47
100
AcDbScale
 70
     0
300
1:20
140
1.0
141
20.0
290
     0
  0
SCALE
  5
50
102
{ACAD_REACTORS
330
47
102
}
330
47
100
AcDbScale
 70
     0
300
1:30
140
1.0
141
30.0
290
     0
  0
SCALE
  5
51
102
{ACAD_REACTORS
330
47
102
}
330
47
100
AcDbScale
 70
     0
300
1:40
140
1.0
141
40.0
290
     0
  0
SCALE
  5
52
102
{ACAD_REACTORS
330
47
102
}
330
47
100
AcDbScale
 70
     0
300
1:50
140
1.0
141
50.0
290
     0
  0
SCALE
  5
53
102
{ACAD_REACTORS
330
47
102
}
330
47
100
AcDbScale
 70
     0
300
1:100
140
1.0
141
100.0
290
     0
  0
SCALE
  5
54
102
{ACAD_REACTORS
330
47
102
}
330
47
100
AcDbScale
 70
     0
300
2:1
140
2.0
141
1.0
290
     0
  0
SCALE
  5
55
102
{ACAD_REACTORS
330
47
102
}
330
47
100
AcDbScale
 70
     0
300
4:1
140
4.0
141
1.0
290
     0
  0
SCALE
  5
56
102
{ACAD_REACTORS
330
47
102
}
330
47
100
AcDbScale
 70
     0
300
8:1
140
8.0
141
1.0
290
     0
  0
SCALE
  5
57
102
{ACAD_REACTORS
330
47
102
}
330
47
100
AcDbScale
 70
     0
300
10:1
140
10.0
141
1.0
290
     0
  0
SCALE
  5
58
102
{ACAD_REACTORS
330
47
102
}
330
47
100
AcDbScale
 70
     0
300
100:1
140
100.0
141
1.0
290
     0
  0
SCALE
  5
59
102
{ACAD_REACTORS
330
47
102
}
330
47
100
AcDbScale
 70
     0
300
1/128" = 1'-0"
140
0.0078125
141
12.0
290
     0
  0
SCALE
  5
5A
102
{ACAD_REACTORS
330
47
102
}
330
47
100
AcDbScale
 70
     0
300
1/64" = 1'-0"
140
0.015625
141
12.0
290
     0
  0
SCALE
  5
5B
102
{ACAD_REACTORS
330
47
102
}
330
47
100
AcDbScale
 70
     0
300
1/32" = 1'-0"
140
0.03125
141
12.0
290
     0
  0
SCALE
  5
5C
102
{ACAD_REACTORS
330
47
102
}
330
47
100
AcDbScale
 70
     0
300
1/16" = 1'-0"
140
0.0625
141
12.0
290
     0
  0
SCALE
  5
5D
102
{ACAD_REACTORS
330
47
102
}
330
47
100
AcDbScale
 70
     0
300
3/32" = 1'-0"
140
0.09375
141
12.0
290
     0
  0
SCALE
  5
5E
102
{ACAD_REACTORS
330
47
102
}
330
47
100
AcDbScale
 70
     0
300
1/8" = 1'-0"
140
0.125
141
12.0
290
     0
  0
SCALE
  5
5F
102
{ACAD_REACTORS
330
47
102
}
330
47
100
AcDbScale
 70
     0
300
3/16" = 1'-0"
140
0.1875
141
12.0
290
     0
  0
SCALE
  5
60
102
{ACAD_REACTORS
330
47
102
}
330
47
100
AcDbScale
 70
     0
300
1/4" = 1'-0"
140
0.25
141
12.0
290
     0
  0
SCALE
  5
61
102
{ACAD_REACTORS
330
47
102
}
330
47
100
AcDbScale
 70
     0
300
3/8" = 1'-0"
140
0.375
141
12.0
290
     0
  0
SCALE
  5
62
102
{ACAD_REACTORS
330
47
102
}
330
47
100
AcDbScale
 70
     0
300
1/2" = 1'-0"
140
0.5
141
12.0
290
     0
  0
SCALE
  5
63
102
{ACAD_REACTORS
330
47
102
}
330
47
100
AcDbScale
 70
     0
300
3/4" = 1'-0"
140
0.75
141
12.0
290
     0
  0
SCALE
  5
64
102
{ACAD_REACTORS
330
47
102
}
330
47
100
AcDbScale
 70
     0
300
1" = 1'-0"
140
1.0
141
12.0
290
     0
  0
SCALE
  5
65
102
{ACAD_REACTORS
330
47
102
}
330
47
100
AcDbScale
 70
     0
300
1-1/2" = 1'-0"
140
1.5
141
12.0
290
     0
  0
SCALE
  5
66
102
{ACAD_REACTORS
330
47
102
}
330
47
100
AcDbScale
 70
     0
300
3" = 1'-0"
140
3.0
141
12.0
290
     0
  0
SCALE
  5
67
102
{ACAD_REACTORS
330
47
102
}
330
47
100
AcDbScale
 70
     0
300
6" = 1'-0"
140
6.0
141
12.0
290
     0
  0
SCALE
  5
68
102
{ACAD_REACTORS
330
47
102
}
330
47
100
AcDbScale
 70
     0
300
1'-0" = 1'-0"
140
12.0
141
12.0
290
     0
  0
ENDSEC
  0
EOF
